INICIO | LO BÁSICO | PENTATONICAS Y ARPEGIOS | LOS ACORDES | GUITARRAS | CANCIONES | COMPRA-VENTA | LINKS


Arpegios y pentatonicas de todos los niveles y de todas las formas

ARPEGIOS 
PENTATÓNICAS

stratocastertelecaster
Ahora les mostraremos un pequeño apartado de los arpegios y pentatonicas, dos de las cosas más divertidas y bonitas que se pueden hacer con la guitarra, tanto classica como eléctrica. Pero para que suenen bien habrá que esforzarse y repetir-los muchas veces hasta que nos salga perfecto y podamos tocar todos los arpegios y pentatonicas que queramos.



   ARPEGIOS  DE 3 A 8 NOTAS:

Los arpegios són una de las cosas más bonitas en la guitarra classica, consta en tocar las notas de un acorde pero nota por nota, no todas juntas. Haciendo arpegios podemos coer una gran habilidad con los dedos o con la púa, aunque algunos arpegios no se pueden hacer con ella. Aquí tienen algunos arpegios fáciles de 3 a 6 notas:

ARPEGIO de 3 notas (comenzando desde la nota que marca el acordes, el bajo)
como ejemplo pondre 3 acordes con distintos bajos SOL, DO y RE


__________SOL_______________________DO________________________RE 

e------------------3----|--------------------0----|---------------------2--
B----------0------------|-----------1-------------|------------3-----------
G-----------------------|-------------------------|------------------------
D-----------------------|-------------------------|--0---------------------
A-----------------------|----3--------------------|------------------------
E----3------------------|-------------------------|------------------------






ARPEGIO de 4 notas. echo con los acordes de SOL, DO y RE con el que vamos a utilizar el pulgar (p) para los bajos y el indice(i), el medio(m) y el anular(a) para las siguientes notas.
__________SOL_______________________DO________________________RE 

e------------------3----|--------------------0----|---------------------2--
B-------------0---------|--------------1----------|--------------3---------
G--------0--------------|--------0----------------|-------2----------------
D-----------------------|-------------------------|--0---------------------
A-----------------------|----3--------------------|------------------------
E----3------------------|-------------------------|------------------------

      p(pulgar)i(index)m( mig)a(anular)


ARPEGIO DE 6 notas. Lo mismo pero más complejo, como vereis, queda mucho más bonito.
__________SOL_______________________DO__________________RE 

e-------------3---------|-----------0--------|-----------2----------
B----------0-----0------|--------1-----1-----|--------3-----3-------
G-------0-----------0---|-----0-----------0--|-----2-----------2----
D-----------------------|--------------------|--0-------------------
A-----------------------|--3-----------------|----------------------
E----3------------------|--------------------|----------------------



ARPEGIO DE 8 notas. El más complicado que os vamos a enseñar, pero en el apartado "canciones" encontrareis algunas piezas con arpegios más complejos ahún.

__________SOL_______________________DO_________________________RE 
e--------------3-----------|---------------0----------|---------2--------
B--------0-----------0-----|--------1-----------1-----|-----3-------3----
G-----0-----0-----0-----0--|-----0-----0-----0-----0--|---2---2---2---2--
D--------------------------|--------------------------|-0----------------
A--------------------------|--3-----------------------|------------------
E--3-----------------------|--------------------------|------------------


Muy bien, ahora el truco está en hacer los canvios de SOL a DO  y de DO  a RE seguidos sin parar, y despues ir dandole velocidad hasta que tu familia flipe de lo rápido que mueves los dedos. Y si quieres hacer arpegios más difíciles, ves al apartado canciones donde encontrarás muchas canciones de arpegios.

Volver a Arpegios y Pentatonicas


   LAS PENTATÓNICAS:
Existen dos tipos de pentatónica, menor y Mayor. La primera puede usarse sobre tonalidades mayores y menores, mientras que la segunda sobre tonos mayores. Es importante saber que tanto la pentatonica mayor como la menor utilizan el mismo patrón. Por ejemplo la escala menor en La es igual que la mayor en Do solo que cambia la tónica.

En los siguientes diagramas esta divida la escala de manera dinámica para que luego, una vez que la domines sin necesidad de mirar los dibujos, puedas unirla como te parezca dejando fluir tu creatividad. El primer diagrama es el mas facil y conocido de todos, asi que es importante no estancarse en ese dibujo solamente.


Las siguientes pentatonicas són ideales para improvisar mientras uno hace acordes, tu haces una pentatonica y casi siempre pega.

pentatonica

ESTAMOS TRABAJANDO EN ESTE APARTADO

Como se hace una pentatonica?


Bien, todos savemos hacer una escala de Do, verdad?Y entre que notas van los tonos ( 1T) y los semitonos (1/2 T)



Pues en la escala de Do, si le quitamos la nota siguiente del semitono, ( en esta escala, el Fa y el Do agudo), pues se hace la pentatonica y nos queda:

pentatonica de Do


Volver a Arpegios y Pentatonicas

Los contadores se reiniciaran cada 7 dias

 Nil Adalia Ibarrola © Julio de 2011
mail: losarpegios@hotmail.com